IPB

Здравствуйте, гость ( Вход | Регистрация )

 
Reply to this topicStart new topic
> § Урок 2. Акцентирование (Уровень - начинающий), Просто, но полезно!
Рейтинг  3
vuger
сообщение Aug 19 2006, 08:20 PM
Сообщение #1


мне нечем заняться и я просиживаю штаны за компьютером!
******

Группа: Пользователь
Сообщений: 413
Регистрация: 8-February 06
Из: Тюмень
Пользователь №: 69
Мои композиции



Ну, во первых, что это вообще такое? Я бы сказал, что это один из способов, обратить внимание на какой то аккорд или ноту, разнообразить музыку, сделать выразительней, а также изменять ритмический рисунок композиций. Ну и конечно не только это, но об этом в других уроках.
В закрепленном к уроку GP файле, мы рассмотрим простой пример акцентирования, путем изменения длительности нот.
В первом такте урока 5 нот в виде небольшой гаммы, для начала играют просто ровно 8-ми. Обязательно играйте переменным штрихом, иначе рискуете овладеть неправильной техникой, и затормозить свое развитие. (Для справки – переменный штрих, это когда удары медиатором сверху и снизу чередуются).
Везде играется Переменным штрихом

E||-----------------------------|
B||---------------- ------------|
G||*---------------------------|
D||*---------------------------|
A||--------------5--7----------|
E||---5---7--8-----------------|


Стандартный ритмический рисунок

--------------------------------------------------------||-----|
--------------------------------------------------------||-----|
-------------------------------------------------------*||-----|
----------------------------------------5--6-----------*||-----|
--5--7-------------------------------8------------------||-----|
--------------------------------------------------------||-----|
Далее вы можете заметить, что постепенно я смещаю акцент и заставляю обращать внимание на какую то ноту путем изменения ее длительности с 8й на 4ю. Таким образом, в седьмом такте я удлинил 2ю ноту, в десятом 3ю ноту и.т.д.

акцент на первой ноте
|-------------------------------------------|-------------------------||-----|
|-------------------------------------------|-------------------------||-----|
|*------------------------------------------|------------------------*||-----|
|*------------------------------------------|-------------5--6-------*||-----|
|-------------------------------5--7--------|--5----7--8--------------||-----|
|---5---------------------7--8--------------|-------------------------||-----|

Вы заметили, что таким образом нам удалось изменить мелодию и ритмический рисунок, хотя ноты мы и не меняли? Многие великие пользуются этим приемом, делая стандартные «заезженные» гитарные «фразы» новыми, а почему бы и нам, простым смертным не попробовать, тем более это так легко – всего лишь поменять длительности нот.
На этом все, урок простой, но лично для меня он очень важен, так как, позволяет еще на одну ступень развить свое музыкальное мышление. Меняйте длительности нот в ваших знакомых проигрышах, в простых гаммах, по одной ноте, по нескольким нотам и будет вам счастье)



Прикрепленные файлы
Прикрепленный файл  Guitar_lesson_3.gp5 ( 2.68 килобайт ) Кол-во скачиваний: 382


--------------------
Стоишь на берегу.
И чувствуешь соленный запах ветра, что веет с моря...
И веришь, что свободен ты и жизнь лишь началась ...
И губы жжет подруги поцелуй, пропитанный слезой ...
На небесах только и говорят, что о море. Как оно бесконечно прекрасно.
О закате, который они видели. О том, как солнце, погружаясь в волны, стало как кровь, И почувтсвовали, что море впитало энергию светила в себя, и солнце было укращено, и огонь уже догорал в глубине........
User is offlineProfile CardPM
Go to the top of the page
+Quote Post
Shane
сообщение Jan 8 2010, 09:52 PM
Сообщение #2


ветеран
********

Группа: Пользователь
Сообщений: 937
Регистрация: 1-February 06
Пользователь №: 38



не херня ли какая-то?
User is offlineProfile CardPM
Go to the top of the page
+Quote Post

Reply to this topicStart new topic
1 чел. читают эту тему (гостей: 1, скрытых пользователей: 0)
Пользователей: 0

 



Текстовая версия Сейчас: 29th November 2021 - 08:07 PM


Rambler's Top100 Яндекс цитирования